Witam wszystkich:)


Regularnie zamieszczam coraz to nowsze artykuły, które dotyczą obu kursów:

I. Kurs Gitarowy dla początkujących - w lewym nagłówku !

II. Kurs HTML i CSS - w prawym nagłówku !


Polecane blogi:



04 marca 2013

Ćwiczenia palców lewej ręki


Aby coraz lepiej opanować trudniejsze utwory, to na pewno musimy popracować nad ćwiczeniami dotyczącymi palców lewej ręki.

W jaki sposób możemy to uczynić. Powinniśmy podczas grania na gitarze korzystać z odpowiednich palców.



Dlatego warto skupić się na takiej zasadzie:

Górne struny barrowe należą do kciuka, natomiast kolejne do palca wskazującego, środkowego i serdecznego.


Teraz przejdźmy do ćwiczeń gry na gitarze



Ćwiczenie 1.
e|--------------|--------------|--------------|--------------|
H|--------0-----|--------0-----|--------0-----|--------------|
G|-----0-----0--|-----0-----0--|-----0-----0--|--------0-----|
D|--3-----------|--2-----------|--1-----------|-----4-----4--|
A|--------------|--------------|--------------|--5-----------|
E|--------------|--------------|--------------|--------------|

Jest również dostępna inna zasada:
Polega ona na przytrzymaniu górnej struny za pomocą kciuka, natomiast kolejnymi palcami chwytamy za struny. Wykonajmy teraz w taki sposób…

Ćwiczenie 2.
e|--------------|--------------|--------------|--------------|
H|--------0-----|--------0-----|--------0-----|--------------|
G|-----0-----0--|-----0-----0--|-----0-----0--|--------0-----|
D|--7-----------|--6-----------|--4-----------|-----4-----4--|
A|--------------|--------------|--------------|--5-----------|
E|--------------|--------------|--------------|--------------|