Witam wszystkich:)


Regularnie zamieszczam coraz to nowsze artykuły, które dotyczą obu kursów:

I. Kurs Gitarowy dla początkujących - w lewym nagłówku !

II. Kurs HTML i CSS - w prawym nagłówku !


Polecane blogi:



01 marca 2013

Gra ręką

W przypadku początków związanych z nauką gry na gitarze na pewno zaczynamy od grania ręką, czyli palcami.
Jednak, jeśli decydujemy się na takie granie, to musimy pamiętać o pewnych zasadach, do których warto się stosować. Dzięki nim będziemy mogli sprawnie grać ręką.

W przypadku gry palcami posługujemy się:

1.kciukiem, 2.palcem wskazującym, 3. palcem środkowym, 4. palcem serdecznym.
Zwróćmy uwagę na ten rysunek, który wskazuje nam, jakich palców mamy używać podczas gry na danej strunie.

|--------------------| palec serdeczny
|--------------------| palec środkowy
|--------------------| palec wskazujący
|--------------------| kciuk
|--------------------| kciuk
|--------------------| kciuk

Tak więc kciuk obejmuje wszelkie struny barrowe(górne na gitarze). Dobrze jest trzymać się takiej reguły, dzięki czemu poradzimy sobie nawet z szybkimi utworami. Wiadomo, że w pewnych utworach możemy posłużyć się zastosowaniem innej kolejności palców, jednak nie powinniśmy od niej za bardzo i za często odbiegać.



 













Ćwiczenie 1.
|------------0-------------|-------0------------------|
|--------0-------0---------|-----------0--------------|
|----0---------------0-----|---0-----------0----------|
|------------------------0-|---------------------0----|
|-----------------------0--|-------------------0------|
|--0---0---0---0---0---0---|-0---0---0---0---0--------|

Ćwiczenie 2.
|-----------------0--------|-----------0--------------|
|-----------0--------------|-----------------0--------|
|-----------------------0--|-----0--------------------|
|-----0--------------------|-----------------------0--|
|--------------------------|--------------------------|
|--0-----0-----0-----0-----|--0-----0-----0-----0-----|

Ćwiczenie 3. (wstep do nothing else matters- Metallica)

|-----------0------------------0--------------------|
|--------0-----0------------0-----0-----------------|
|-----0-----------0-----0------------0--------------|
|---------------------------------------------------|
|---------------------------------------------------|
|--0-----------------0------------------------------|