Witam wszystkich:)


Regularnie zamieszczam coraz to nowsze artykuły, które dotyczą obu kursów:

I. Kurs Gitarowy dla początkujących - w lewym nagłówku !

II. Kurs HTML i CSS - w prawym nagłówku !


Polecane blogi:



01 marca 2013

Gra z piórkiem



Jeśli chcemy uczyć się dobrze grać na gitarze, to już na początku powinniśmy dokładnie zdecydować się na pewne rozwiązanie. A dotyczy one formy grania na gitarze. Może się ona odbywać za pomocą palcami, ale także poprzez piórko.

Gra piórkiem na pewno jest bardzo ciekawa. To dzięki niej jesteśmy w stanie uzyskiwać głośniejsze efekty, jak i być dokładniejszym. Dlatego wiele osób postanawia naukę gry na gitarze z piórkiem.

Ale dobrze jest opanować te 2 techniki. Jest to wynikiem tego, że w pewnych sytuacjach stosowniejsza okaże się gra na piórku, a w innych na palcach. Wiele tutaj zależy od danego utworu.


Gra na gitarze piórkiem - możliwości

Decydując się na grę piórkiem, musimy przemyśleć sprawę związaną z formą uderzania strun. Wyróżniamy 2 możliwości:


  
 -od góry






-od dołu





Tak naprawdę, to najlepiej jest wybrać sposób, który nam bardziej pasuje. Poza tym musimy zauważyćże w pewnych sytuacjach( szybkich zagrywkach) będziemy zmuszeni korzystać z 2 sposobów w danym utworze. Dzięki temu poradzimy sobie z szybszym tempem.

Pewne utwory bardzo dobrze brzmią w momencie używania jednej formy brzemienia.
Warto zdecydować się na któryś z nich, ale mimo wszystko być w tym elastycznym i nieraz korzystać z 2.

W przypadku rozpoczynania gry piórkiem, powinniśmy skupić się na cennych ćwiczeniach. Dzięki nim będziemy mogli dokładnie uderzać w dane struny podczas gry piórkiem.

Przejdźmy do ćwiczeń…

Ćwiczenie 1.

|-----------------0--------|-----------0-----------------|
|-----------0--------------|------------------0----------|
|-----------------------0--|-----0-----------------------|
|-----0--------------------|--------------------------0--|
|---------------------------|------------------------------|
|--0-----0-----0-----0---|--0-----0-----0---- 0------|


Ćwiczenie 2.

|-----------------0--------|-----0------------------------|
|-----------0--------------|-----------0-----------0-----|
|-----0--------------------|-----------------0------------|
|--------------0--------0-|--------------0---------------|
|--------0-----------------|--------0---------------------|
|--0-----------------0----|--0-----------------0--------|

Ćwiczenie 3. (wstęp do nothing else matters- Metallica)

|-----------0------------------0----------------------|
|--------0-----0------------0-----0------------------|
|-----0-----------0-----0------------0---------------|
|-------------------------------------------------------|
|-------------------------------------------------------|
|--0-----------------0--------------------------------|